The Official KT Tunstall Board
http://forums.kttunstall.com/

KT's Guitar Tabs
http://forums.kttunstall.com/viewtopic.php?f=1&t=7466
Page 81 of 87

Author:  kaleigh.elisabeth [ Tue Sep 15, 2009 4:19 pm ]
Post subject:  Re: KT's Guitar Tabs

Hey...I was searching the net, and came across these chords. Hopefully they're decent..Goodluck!

Under The Weather - KT Tunstall

Em7 - 03020x
A7 02020x
B/C 01022x
A/C 01000x

Intro

G C
-----3------3------3------------|
-0------1------1------1h3p1-----|
---0------0------0--------------| repeat throughout
--------------------------------|
--------------------------------|
--------------------------------|

Verse 1
G C
Under this national rain cloud
G C
I'm getting soaked to the skin
G C
Trying to find my umbrella
Em Em7 A7
But I don't know where to begin

(Same chords as above)
And it's simply irrational weather
Can't even hear myself think
Constantly bailing out water
But still like I'm gonna sink

Chorus
G C
Coz I'm under the weather
G C
Just like the world
Em B Em D C
So sorry for being so bo...ld

(Same chords as above)
When I turn out the light
You're out of sight
Although I know that I'm not alo..ne
Feels like home

(Same as verse 1)
You say you feel like a natural person
You haven't got nothing to hide
So why do you feel imperfection
Cut like a sword in your side

(Same as chorus)
Coz you're under the weather
Just like the world
And I need somebody to hold
When I turn out the light
You're out of sight
Although I know that I'm not alone
Feels like home

Bridge
B Em C
Feels like ho...me repeat as many times

(Last time)
B Em C D G C F
Feels like ho...........me
C G C F C
Yeah it feels like hoo..ome woah oh wooah

(Chorus chords again)
Oh cos i'm under the weather
just like the world
and i need somebody to hooold
When i turn out the light
your out of sight
allthough I know that I'm not alone

C B/C A/C G
Feels like home

Author:  gwen [ Wed Sep 16, 2009 5:47 pm ]
Post subject:  Re: KT's Guitar Tabs

^ Ahh thank you, will try them out as soon as I can.

Author:  mateytunstall [ Fri Sep 25, 2009 8:42 am ]
Post subject:  Re: KT's Guitar Tabs

Does anyone know the chords for Parachute Man? I've been wanting to learn it for ages but couldn't work it out.

Author:  DCVan [ Thu Nov 12, 2009 9:28 pm ]
Post subject:  Re: KT's Guitar Tabs

Does anyone have the tab for "Change", please?

Author:  kaleigh.elisabeth [ Fri Nov 13, 2009 2:28 pm ]
Post subject:  Re: KT's Guitar Tabs

Hey..
Found this tab while searching the net. I don't have a guitar on me, so I can't try it out to see if it's accurate. Goodluck! :smt023


CHANGE

Em7 Em7 A7 A7

e||-0---------|-0--------------|-----------------|-0----------------|| ]
B||-----0---0-|-------0---0----|------10------10-|----------10------|| ]
G||-----7---7-|-------7---7----|---12----12------|-------12----12---|| ]
D||---5---5---|-----5---5--(0)-|------11----11---|---(11)---11------|| ]
A||-----------|--(7)-----------|-12--------------|-12---------------|| ]
E||-0---------|-0--------------|-----------------|---------------10-|| ]
]
Cadd9 Cadd9 Badd11 Badd11 |> x4
]
e||-8------------|-8---------|-0------------|-0---------------|| ]
B||-----8--------|-----8-----|---4---4------|---4---4-------/-|| ]
G||---0---0--(0)-|---0---0---|-----4----(4)-|-----4-----(4)-/-|| ]
D||-----0--------|-----0-----|---------4----|---------4-----/-|| ]
A||---------7----|---------x-|-2------------|-2---------------|| ]
E||-8------------|-8---------|--------------|-----------------|| ]

C9 C9 B7 B7

e||-----------|-0-----------|-2-----------|-2-----------||
B||-----3---3-|-----3-----x-|-----0-------|-----0-------||
G||---3--(3)--|---3---(3)---|---2---2---2-|---2---2---x-||
D||-----0---0-|-----0-----x-|-------------|-------------||
A||-3---------|-3-----------|-2-------2---|-2-------x---||
E||-----------|-------------|-------------|-------------||

Em7 Cadd9 G G

e||-0-----------|-3-----------|-3-----------|-3-------------||
B||-----3-----3-|-----3-----3-|-----3-----3-|---3--(3)------||
G||-----0---0---|-----0---0---|---0-----0---|-----0---------||
D||---2---2-----|---2---2-----|-----0-0-----|-------0-----0-||
A||-------------|-3-----------|-------------|---------0h2---||
E||-0-----------|-------------|-3-----------|-3-------------||

C9 C9 B7 B7

e||-----------|-0-----------|-2-----------|-2-----------||
B||-----3---3-|-----3-----x-|-----0-------|-----0-------||
G||---3--(3)--|---3---(3)---|---2---2---2-|---2---2---x-||
D||-----0---0-|-----0-----x-|-------------|-------------||
A||-3---------|-3-----------|-2-------2---|-2-------x---||
E||-----------|-------------|-------------|-------------||

Em7 Cadd9 G D

e||-0-----------|-3-----------|-3-----------|-2---2-------||
B||-----3-----3-|-----3-----3-|-----3-----3-|-----3-----x-||
G||-----0---0---|-----0---0---|---0-----0---|---2---2-----||
D||---2---2-----|---2---2-----|-----0-0-----|-0-------0---||
A||-------------|-3-----------|-------------|-------------||
E||-0-----------|-------------|-3-----------|-------------||

E E Emaj7 Emaj7

e||-0-------------|-0-------------|-0-------------|-0-----------|| ]
B||-------0-------|-------0-------|-------0-------|-------0-----|| ]
G||-------1-------|-------1-------|-------1-------|-------1---1-|| ]
D||-----2---2---2-|-----2---2---1-|-----1---1---1-|-----1-----1-|| ]
A||---2---2---2---|---2---2---2---|---2---2---2---|---2---2-2---|| ]
E||-0-------------|-0-------------|-0-------------|-0-----------|| ]
]
Asus2 Asus2 Am7 Am7add6 |> x2
]
e||-0-------------|-0-------------|-0-------------|-2-----------|| ]
B||-------0-------|-------0-------|-------1-------|-------1-----|| ]
G||-----2---2---2-|-----2---2---2-|-----0---0---0-|-----0---0---|| ]
D||---2---2---2---|---2---2---2---|---2---2---2---|---2---2---x-|| ]
A||-0-------------|-0-------------|-0-------------|-0-----------|| ]
E||---------------|---------------|---------------|-------------|| ]

Am7add6

e||-2-------|| Pick this once, hold it for four beats,
B||-1-------|| Then repeat the whole song again!
G||-0-------|| And when it comes to this part for the
D||-2-------|| Second time round, hold it again,
A||-0-------|| Then play the part below:
E||---------||

E E Emaj7 Emaj7

e||-0-------------|-0-------------|-0-------------|-0-----------||
B||-------0-------|-------0-------|-------0-------|-------0-----||
G||-------1-------|-------1-------|-------1-------|-------1---1-||
D||-----2---2---2-|-----2---2---1-|-----1---1---1-|-----1-----1-||
A||---2---2---2---|---2---2---2---|---2---2---2---|---2---2-2---||
E||-0-------------|-0-------------|-0-------------|-0-----------||

Asus2 Asus2 Am7add6 Am7add6

e||-0-------------|-0-------------|-2-------------|-2-------------||
B||-------0-------|-------0-------|-------1-------|-------1-------||
G||-----2---2---2-|-----2---2---2-|-----0---0---0-|-----0---0---0-||
D||---2---2---2---|---2---2---2---|---2---2---2---|---2---2---2---||
A||-0-------------|-0-------------|-0-------------|-0-------------||
E||---------------|---------------|---------------|---------------||

Am7add6 Am7add6 Emaj7

e||-2-------|-2-----0h2-|-0-----||
B||-----1---|-----1-----|-0-----||
G||-------0-|-----0-----|-1-----||
D||---2-2---|---2-------|-1-----||
A||-0-------|-0---------|-2-----||
E||---------|-----------|-0-----||

| / slide up
| \ slide down
| h hammer-on
| p pull-off
| ~ vibrato
| + harmonic
| x Mute note

Author:  DCVan [ Fri Nov 13, 2009 10:55 pm ]
Post subject:  Re: KT's Guitar Tabs

Thanks a lot :smt023

Author:  evemarine [ Sat Nov 28, 2009 6:17 pm ]
Post subject:  Re: KT's Guitar Tabs

Hi all. I posted once before for the song Ain't nobody. Someone gave me the chords but when I watched this video http://www.youtube.com/watch?v=U_XHLDnj ... re=related
and compared to the chords I saw that she plays : Dm then C/D but the 3rd one is not Bb* (x30033) I thought that it was x13331 Bb but looking at what she plays it doesn't seem that it's the good one neiher... Could someone have a look at this and tell me?
Thanks
:D

Author:  pisquita [ Sat Nov 28, 2009 6:36 pm ]
Post subject:  Re: KT's Guitar Tabs

^This vid should be more helpfull

http://www.youtube.com/watch?v=oN3QxeCmf2A&feature=related

Author:  evemarine [ Sun Dec 06, 2009 2:43 pm ]
Post subject:  Re: KT's Guitar Tabs

pisquita wrote:


Thanks, I'm gonna watch it =)
edit: 've watched and found the chords, thank you sooo much ! :D

Author:  kaleigh.elisabeth [ Wed Dec 16, 2009 4:01 pm ]
Post subject:  Re: KT's Guitar Tabs

Hey...Does anyone have the lyrics for KT's new song, Madame Trudeau? :smt035

Author:  scientist06 [ Tue Dec 29, 2009 8:38 pm ]
Post subject:  Re: KT's Guitar Tabs

I just can play if only :cry: I'll be getting some guitar lessons....

Author:  kttunstallator [ Thu Jan 07, 2010 7:25 am ]
Post subject:  Re: KT's Guitar Tabs

[color=#FF4000]Ohh!!! :smt041 oh yyeeeeeaaaaa! I just now heard "Hazel Black" over the radio while on the way to Guitar Center...I think it was on a country station... :smt017

what a comeback--seems like everytime I hear her she just keeps on getting better n better. 8)

Author:  ST [ Thu Jan 07, 2010 7:29 am ]
Post subject:  Re: KT's Guitar Tabs

^ That is a top tune! I'm not holding my breath until I hear it on the radio here, though. :lol:

Author:  kaleigh.elisabeth [ Thu Jan 07, 2010 1:50 pm ]
Post subject:  Re: KT's Guitar Tabs

WeeeeHOO!! Hazel Black is such a wonderful song!!I'll have to listen for it on the radio...It's definetly not country though :shock:

Author:  pisquita [ Thu Jan 07, 2010 2:31 pm ]
Post subject:  Re: KT's Guitar Tabs

I love Hazel Black, it's top tune

And i love that pic in your sig Kaleigh, where did you find it?

Page 81 of 87 All times are UTC
Powered by phpBB © 2000, 2002, 2005, 2007 phpBB Group
http://www.phpbb.com/